Woman playing guitar Photo by Matthew Kane
We've heard this played many different ways. 
This is just one simple version that can be used for songs in the key of C.

e|----3---3-3--1--0--3--1--|--0---------1--0---------|
B|-------------------------|-----3--1--------3--1----|
G|-------------------------|-----------------------2-|
D|-------------------------|-------------------------|
A|-------------------------|-------------------------|
E|-------------------------|-------------------------|


e|----3---3-3--1--0--3--1--|--0---------1--0---------|
B|-------------------------|-----3--1--------3--1--0-|
G|-------------------------|-------------------------|
D|-------------------------|-------------------------|
A|-------------------------|-------------------------|
E|-------------------------|-------------------------|


e|----3---3-3--1--0--3--1--|--0---------1--0---------|
B|-------------------------|-----3--1--------3--1----|
G|-------------------------|-----------------------2-|
D|-------------------------|-------------------------|
A|-------------------------|-------------------------|
E|-------------------------|-------------------------|


e|-------------------------|-------------------------|
B|-------------------------|-------------------------|
G|--0--0-0-2--0------------|-------------------------|
D|---------------2--3---2--|-0-----------------------|
A|-------------------------|----2---3----------------|
E|-------------------------|--------------3-3-3---3--|